Pages

Ads 468x60px

Labels

Search This Blog

Loading...

Featured Posts

Wednesday, September 5, 2012

Rab Ka Shukrana Guitar Tabs (Jannat 2)

G|-12-12-13-12-10-10-8-10-10-12-10-8-7-8-10-10-8---10-10-8-
D|----------------------------------------------------------------8------------
Starting Melody

G|----------------7---5---7---5-
D|-5-6-5-6-5-6---8---5---8----
Tu hai ab jo bahoon mein Karaar hai

G|-7-5-5-3-3------------------
D|---------------6-6-5-5h6--
Rab ka shukrana

G|--------------------8----------8--
D|-3-5-3-5-3-7-10---7-7-10----
Saanson mein hai nasha Khumaar hai

G|-7-5-5-3-3------------
D|---------------6-6-5-5-
Rab ka shukrana

G|----------------7---5---7---5-
D|-5-6-5-6-5-6---8---5---8----
Tu hi ab mera deen hai Imaan hai

G|-7-5-5-3-3---------------
D|---------------6-6-5-5h6-
Rab ka shukrana

G|--------------------8----------8-
D|-3-5-3-5-3-7-10---7-7-10---
Mera kalma hai tu Azaan hai

G|-7-5-5-3-3------------
D|---------------6-6-5-5-
Rab ka shukrana

G|-12-10-10h12-12-10-8-8\5-
Tu mila toh sab mila

G|-12-10-10h12-12-10-8-8-10-
Ab kisi se kya gilaa

G|-10-10-10-12-10-8-7-
Tujhme simtoon


G|-10-10-10-12-10-8-7-
Aa mein bikhroon

G|-7-8-10-13-12-
Teri bahoon mein

G|-12-10-10h12-12-10-8-8\5-
Tu mila toh sab mila

G|-12-10-10h12-12-10-8-8-10-
Ab kisi se kya gilaa

G|-10-10-10-12-10-8-7-
Tujhme simtoon

G|-10-10-10-12-10-8-7-
Aa mein bikhroon

G|-7-8-10-13-12-
Teri bahoon mein

G-10-12-10-8-7-5-5-5h7-
Fanaa ho jaon main

G|---------------7---5---7---5-
D-5-6-5-6-5-6---8---5---8---
Tu hi ab duniya meri Jahan hai

G|-7-5-5-3-3---------------
D|---------------6-6-5-5h6-
Rab ka shukrana

G|-----------------8-----------8-
D-3-5-3-5-7-10----7-7-10---
Khwaabon ki khayalon ki Udaan hai

G|-7-5-5-3-3------------
D|---------------6-6-5-5-
Rab ka shukrana

G|----------------7---5---7---5
D|-5-6-5-6-5-6---8---5---8--
Tu hi ab mera deen hai Imaan hai

G|-7-5-5-3-3--------------
D|--------------6-6-5-5h6-
Rab ka shukrana

G|--------------------8-----------8--
D|-3-5-3-5-3-7-10---7-7-10---
Mera kalma hai tu Azaan hai

G|-7-5-5-3-3------------
D|---------------6-6-5-5-
Rab ka shukrana

G|-12-10-10h12-12-10-8-8\5-
Sab se ho jaon parey

G|-12-10-10h12-12-10-8-8-10-
Jo ishaara tu karey

G|-10-10-10-12-10-8-7-
Ab toh rehna hai

G|-10-10-10-12-10-8-7--7-8-10-13-12-
Tujhi mein gumshudaa hoon main

G|-12-10-10h12-12-10-8-8\5-
Sab se ho jaon parey

G|-12-10-10h12-12-10-8-8-10-
Jo ishaara tu karey

G|-10-10-10-12-10-8-7
Ab toh rehna hai

G|-10-10-10-12-10-8-7--7-8-10-13-12
Tujhi mein gumshudaa hoon main

G|-10-12-10-8-7-5-5-5h7-
Ho teri bahoon mein

G|----------------7---5---7---5-
D|-5-6-5-6-5-6---8---5---8---
Jazbon ka ab toh naya Bayaan hai

G|-7-5-5-3-3-----------
D|---------------6-6-5-5h6-
Rab ka shukrana

G|-----------------8----------8--
D|-3-5-3-5-7-10---7-7-10----
Naya rutbaa nayi shaan hai


G|-7-5-5-3-3-----------
D|---------------6-6-5-5-
Rab ka shukrana

G|---------------7---5---7---5-
D|-5-6-5-6-5-6---8---5---8---
Tu hi ab mera deen hai Imaan hai

G|-7-5-5-3-3--------------
D|--------------6-6-5-5h6-
Rab ka shukrana

G|------------------8-----------8-
D|-3-5-3-5-7-10----7-7-10--
Mera kalma hai tu Azaan hai

G|-7-5-5-3-3------------
D|---------------6-6-5-5-
Rab ka shukrana

Aye Mere Watan Ke Logon Guitar Tabs

B|----2-2-2-2-4-2-0-0-----
G|-1------------------------
aye mere watan ke logon

B|---------2-2-2--2--4-2-0-0----
G|-1-1-----------------------------
zara aankh mein bhar lo paani

E|-------------------------1-----
B|---0-4-4-5-4-2-2-4----------
G|-1---------------------------
jo shaheed hue hain unki

E|---1----------------------------
B|-----4-4-2-0-0-4-2-2-2-----
zara yaad karo qurbaani

E|--4-4-4-4-4-2-1-4-4-------
jab ghayal hua himaalay

E|--4-2-4-6-4-2-2-4-2/1-1----
khatre mein padi aazadi

E|----------2-2-1---------------
B|--2-4-4---------4-2-4-4------
jab tak thi saans lade vo

B|----2-2-4-5-5-4-2----4-2-2----
G|----------------------3------------
phir apni laash bichha di

sangeen pe dhar kar maatha
so gaye amar balidaani
jo shaheed hue hain unki
zara yaad karo qurbaani

E|---4-4-4-4-4-4-4-2-1-4-4-----
koi sikh koi jaat maraatha

E|---------1--1-2-1---------------
B|--2-4-4-----------4-2-2--------
koi gurakha koi madaraasi

E|---6-6-6-7-6-4-2-4-6-6-----
sarahad pe maranevaala


E|---4-2-4-4-2-1---------------------
B|-------------------4-2-4-2-2-------
har veer tha bhaaratavaasi

jo khoon gira parvat par
vo khoon tha hindustaani
jo shaheed hue hain unki
zara yaad karo qurbaani


E|--4-2-1---1-1-2-1--------------
B|---------4------------4-2-2------
thi khoon se lath-path kaaya

E--4-4-2-1----1-2-1------------
B|------------4--------4-2-2------
phir bhi bandook uthaake

E|---4-4-2-2-1-----1-2-1------------
B|-----------------4---------4-2-2----
das-das ko ek ne maara

E|--4-4-6-4-4-2-1-4-4------
jab ant-samay aaya to

E|-----4-2-4-6-6-6-4-2-4-2-1------
kah gaye ke ab marate hain

E|-----------2-2-4-6-4-2-4-6-6----
B|--2-2-4-----------------------------
khush rahana desh ke pyaaron

E|----6-6-6-6-7-6-4-2-4-6-6--------
khush rahana desh ke pyaaron

E|--4-2-4-6-4-2-1------------------
B|----------------------4-2-4-2-2----
ab ham to safar karate hain

E|-2-1-1-2-2-1-1----------------
B|--------------------4-2-4-2-----
ab ham to safar karate hain

kya log the vo deewane
kya log the vo abhimaani
jo shaheed hue hain unki
zara yaad karo qurbaani
tum bhool na jaao unko
is liye kahi ye kahaani
jo shaheed hue hain unki
zara yaad karo qurbaani

B|----2-2-2-0-4-2----------------------------
G|--1----------------------------------------
jay hind jay hind ki sena

Na Jaane Mere Dil Ko Kya Ho Gaya Guitar Tabs (DDLJ)

E|-----3-5-3-3-6-5-3-3-5-6-8-5-
B|-3-----------------------------
Na jaane mere dil ko kya ho gaya

E|-----2-5-3-2-5-3-2-5-6-6-3----
B|-3-------------------------------
Abhi to yahin tha, abhi kho gaya

E|-----3-5-3-3-6-5-3-3-5-6-8-5-
B|-3-----------------------------
Na jaane mere dil ko kya ho gaya

E|-----2-5-3-2-5-3-2-5-6-6-3----
B|-3-------------------------------
Abhi to yahin tha, abhi kho gaya

E|-3-10-8-10-6-8-6-6-8-5-5-5-6-8-5-
Ho gaya hai tujhko to pyaar sajna

E|-1-8-6-8-5-5-6-5-6-3-3-3-
Laakh kar le tu inkaar sajna

E|-6-5-6-3-3-3--6-5-6-3-3-3-
Dildaar sajna, hai yeh pyaar sajna

E|-3-10-8-10-6-8-6-6-8-5-5-5-6-8-5-
Ho gaya hai tujhko to pyaar sajna

E|-1-8-6-8-5-5-6-5-6-3-3-3-
Laakh kar le tu inkaar sajna

E|-6-5-6-3-3-3--6-5-6-3-3-3-
Dildaar sajna, hai yeh pyaar sajna

E|-6-5-3-6-6-5-6-8-8-5-
Dekha na tune mudke bhi peeche

E|-5-5-3-5-8-6-5-3-
Kuch der to main ruka tha

E|-6-5-3-6-6-5-6-8-8-5-
Jab dil ne tujhko rokna chaaha

E|-5-3-5-10-8-10-10-
Door tu jaa chuka tha


E|-1-3-5-3--0-1-3-1-
Hua kya…Na jaana

E|-1-3-5-5-3-----------0-------
B|----------------1-3-----------3----
Yeh Dil Kyon…Deewana


E|-3-10-8-10-6-8-6-6-8-5-5-5-6-8-5-
Ho gaya hai tujhko to pyaar sajna

E|-1-8-6-8-5-5-6-5-6-3-3-3-
Laakh kar le tu inkaar sajna

E|-6-5-6-3-3-3--6-5-6-3-3-3-
Dildaar sajna, hai yeh pyaar sajna


E|-1-0----------1-1-0-1-3-3-0-
B|--------3--------------------------
Ae waqt ruk jaa, tham jaa, thaher jaa

E|-0-0----------0-3-1-0----------
B|---------3------------------3------
Waapas zara daud peeche

E|-3-2-0-3-3-2-2-3-5-5-2-
Main chhod aayi khud ko jahan pe

E|-2-2-0-2-7-5-7-7
Woh reh gaya mod peeche

E|-3-5-7-5-
Kahan main

E|-2-3-5-3-
Kahan tu

E|-3-5-7-7-5---------0-2-0----
B|----------------3------------
Yeh kaisa… Hai jaadu

E|-3-3-10-8-10-6-8-6-6-8-5-5-5-6-8-5-
Arre Ho gaya hai tujhko to pyaar sajna

E|-1-8-6-8-5-5-6-5-6-3-3-3-
Laakh kar le tu inkaar sajna


E|------3-5-3-3-6-5-3-3-5-6-8-5-
B|-3-----------------------------
Na jaane mere dil ko kya ho gaya

E|--------2-5-3-2-5-3-2-5-6-6-3----
B|-3-------------------------------
Abhi to yahin tha, abhi kho gaya

Saiyaara Guitar Tabs (Ek Tha Tiger)

G|------0-0-2-3-2-0----
D|-3-3--------------------

G|------2-2-2-3-2---
D|-3-3----------------

G|-2-3-2-3-2-0-0-

STARTING MELODY

B|-3-1-3---------------------------
G|---------3--3\5-5--5\7--5-0---
Aasmaan, tera mera hua

G|-3-2-3-2-3-2-2--------
D|--------------------3\5--0
Khwaab ki tarah dhuaan dhuaan

B|-3-1-3---------------------------
G|---------3--3\5-5--5\7--5-0---
Aasmaan, tera mera hua

G|-3-2-3-2-3-2-2--------
D|--------------------3\5--
Saans ki tarah ruaan ruaan

e|-3-3-1---------------
B|---------4--3-3-3---
Ho jaaye jahaan tu jaaye

e|-3-3-1--3\5--3-3-3---
Paaye mujhe hi paaye

e|----------1-1----1-5-3-5-3-3-3---
B|-4-4-4------------------------------
Saaye yeh mere, Hai tujh mein samaaye

G|------0-0-2-3-2-0----
D|-3-3--------------------
Saiyaara main saiyaara

G|------0-0-2-3-2-0----
D|-3-3--------------------
Saiyaara tu saiyaara


G|------2-2-2-3-2---
D|-3-3----------------
Sitaaron ke jahaan mein

G|-2-3-2-3-2-0-0-
Milenge ab yaara

B|-3-1----------1-3-1-3-1--------
G|------2-3--3--------------3-2---
Tu jo mila, toh yun hua

G|-2-2-0-2-2---2-3-2-3-2-0-0--
Ho gayi poori adhoori si dua

B|-3-1----------1-3-1-3-1--------
G|------2-3--3--------------3-2---
Tu jo gaya, toh le gaya

G|-2-2-0-2-2---2-3-2-3-2-0-0--
Sang tere mere jeene ki har wajah

e|-3-3-1---------------
B|---------4--3-3-3---
Ho jaaye jahaan tu jaaye

e|-3-3-1--3\5--3-3-3---
Paaye mujhe hi paaye

e|----------1-1----1-5-3-5-3-3-3---
B|-4-4-4------------------------------
Saaye yeh mere, Hai tujh mein samaaye

G|------0-0-2-3-2-0----
D|-3-3--------------------
Saiyaara main saiyaara

G|------0-0-2-3-2-0----
D|-3-3--------------------
Saiyaara tu saiyaara

G|------2-2-2-3-2---
D|-3-3----------------
Sitaaron ke jahaan mein

G|-2-3-2-3-2-0-0-
Milenge ab yaara

Aise Na Mujhe Tum Dekho Guitar Tabs (Darling Darling)

D|-0-2-3--0-2-3-0-2-2-----
Aise na mujhe tum dekho

G|------------------0-2-0--
D|-0-2-3--0-2-3----------
Sine se lagaa lungaa

G|--------------0---------------0--
D|-3-2-0-2-3----3-2-0-2-3-----
Tum ko main churaa lungaa tumase

G|-------0----------
D|-0-0-----3-2-2--
Dil men chhupaa lungaa

G|-1-2---1-2----
hmm hmm hmm hmm

B|-------0-2-2-3-2-2-0-0---
G|-2-2------------------------
Tere dil se ai dilabar,

E|-------0------------------
B|-2-3-----3-2-0-2-3-2--
Dil meraa kahataa hai

B|-------0-2-2-3-2-2-0-0---
G|-2-2------------------------
Pyaar Ke Dushman Log mujhe

B|-0-0-2-0-0--------------
G|---------------2-2-1-2---
Dar lagtaa rehtaa hai

B|----------0---------------
G|-1-1-2-----2-1---------
D|-------------------2-2---
Thaam lo tum meri baahen,

B|----1-1-1-0----------
G|----------------2-2---
D|-2---------------------
Main tumhen sambhaalungaa

G|--------------0---------------0--
D|-3-2-0-2-3----3-2-0-2-3-----
Tumako main churaa lungaa tumase

G|-------0----------
D|-0-0-----3-2-2--
Dil men chhupaa lungaa

Teri Aankhe Bhool Bhulaiyaa Guitar Tabs (Bhool Bhulaiyaa)

B|-1-1-1-1-1-1-3-4--
Starting Melody

B|-1-1-1-1-1-1-------
G|----------------1-0--
Starting Melody

B|-1-1-1-1-1-1-3-4--
Teri aankhe bhool bhulaiya,

B|-1-1-1-1-1-1-------
G|----------------1-0--
baatein hai bhool bhulaiya

e|---------------------1---------1----------
B|-1-1-1-1-1-1-3-4----4-3-4----4-3-1--
Tere sapnoo ki galiyon mein, I keep looking for you baby.

B|-1-1-1-1-1-1-3-4--
Teri aankhe bhool bhulaiya,

B|-1-1-1-1-1-1-------
G|----------------1-0--
baatein hai bhool bhulaiya

e|---------------------1---------1----------
B|-1-1-1-1-1-1-3-4----4-3-4----4-3-1--
Tere sapnoo ki galiyon mein, You keep driving me so crazy.

e|----3-1-3-4-3--
B|-1---------------
Dil mein tu rehtein hai,

e|----3-1-----------
B|-1-------4-3-4--
betabi kehti hai

e|----3-1-3-4-3--
B|-1---------------
I keep praying all day..

B|-4-3-1-3-4--
All day.. all night long

B|-1-3-4--4-3-1---
Hare ram hare ram,

e|----------1----------
B|-1-3-4-----3-4-3--
hare krishna hare ram

e|----1-3-3-1-----
B|-4-----------4--
Hare ram hare ram,

e|----1-3-4-1-3----------------
B|-1--------------4-3-1-3-4--
hare krishna hare ram.. ohhh oooo

B|-4-3-4-1-1-4-3--
Tu meri khamoshi hai,

B|-4-3-4-1-1-4-3--
tu meri madhosi hai

B|-4-3-4-1-1-4-3--
Tu mera hai aafsaana

G|-1-1-1-1-0-0-0-0--
making me so happy, shaking my body

B|-4-3-4-1-1-4-3--
Tu hai aawara dhadkhan,

B|-4-3-4-1-1-4-3--
tu hai raaton ki tadpan

B|-4-3-4-1-1-4-3--
Tu hai meri dil jaana

G|-1-1-1-1-0-0-0-0--
anything about you, baby i like it

B|-4-4-4-3-3-3-4-1-1-1-1-1-1-3-4--
Teri zulfon ke neeche, meri kwaboon ki janat

B|-4-4-4-3-3-3-4-1-1-1-1---------------
G|------------------------------3\5-3-3-0--
Teri baahon mein aake, bechaini ko milti raahat

B|-4-4-4-3-3-3-4-3---1-1-1-3-4---
My only wish is if i ever ever could make you mine

B|-4-4-4-3-3-3-3-4-3-1-3-4---
Every one pray with me, All day, all night long


B|-1-3-4--4-3-1---
Hare ram hare ram,

e|----------1----------
B|-1-3-4-----3-4-3--
hare krishna hare ram

e|----1-3-3-1-----
B|-4-----------4--
Hare ram hare ram,

e|----1-3-4-1-3----------------
B|-1--------------4-3-1-3-4--
hare krishna hare ram.. ohhh oooo

Nescafe Guitar Tabs

B|-3--1--3-----1--3--4---
G|-----------3------------

B|-3--1--3-----1----------
G|-----------3------3--2--

G|-2h3------------
D|--------3--3\5---

 

Sample text

Sample Text

Sample Text